Shop Mobile More Submit  Join Login
About Digital Art / Hobbyist HoneytailFemale/United States Group :iconadalic: Adalic
 
Recent Activity
Deviant for 1 Year
Needs Core Membership
Statistics 85 Deviations 227 Comments 3,522 Pageviews
×

Newest Deviations

nebula :iconhoneytailz:Honeytailz 1 0 attractive mess :iconhoneytailz:Honeytailz 1 0 promise :iconhoneytailz:Honeytailz 3 2 listen :iconhoneytailz:Honeytailz 4 1 shape :iconhoneytailz:Honeytailz 3 0 Happe Birthday :iconhoneytailz:Honeytailz 4 2 sweater weather :iconhoneytailz:Honeytailz 5 0 animal jam meme :iconhoneytailz:Honeytailz 5 8 ref 2017 :iconhoneytailz:Honeytailz 3 0 surrounded :iconhoneytailz:Honeytailz 3 0 electric :iconhoneytailz:Honeytailz 7 0 daydreamer :iconhoneytailz:Honeytailz 3 0 falling :iconhoneytailz:Honeytailz 5 5 flashbacks :iconhoneytailz:Honeytailz 4 7 Angel :iconhoneytailz:Honeytailz 4 0 late at night :iconhoneytailz:Honeytailz 2 2

Favourites

~ Fanart Jacksepticeye 2017 New Green!!! ~ :iconfloatingmegane-san:FloatingMegane-san 2,237 93
Journal
GUYS I HAD AN AMAZING DREAM LAST NIGHT
ONE DAY IM COMPILING MY DREAMS I SWEAR
--11TH DREAM ENTRY--
*this took place in school*
it started with a shortage of every item to exist, much like the great depression (the cafeteria sold emergency food supply). we were all desperate for food, especially water and milk. my math class decided we would handle looking for the items, i think my dream worked as we had to find lost items. we went to many different places, traveling in a car/bus, having class time together while also teaming up to help the school. after the class despaired and lost all hope, i suggested we try the field (which was for some reason my elementary school's field). we searched and searched, but no luck... until, a few other kids and i found a large supply bin. it had food, clothes, and milk packets. the bucket seemed to be never-ending.. the whole class cheered and we were all crying and hugging, but i sat back and took in all of the memories we had together on the journey, in the car and looking around as a cla
:iconstarryy-sux:starryy-sux
:iconstarryy-sux:starryy-sux 3 3
Psylla :icondirastudio:DiraStudio 110 3
Journal
So about the new girl at my school
A total wreck. Litearally... She doesn't even know what the word "free" means in english... Oh dear... Even my grandmother knows english better than her... 
She is a total bitch, just saying... And she isn't even nice... Ayaya.... 
What happened:
I saw her at my block 1 class, i'm supposed to have french, but i quit french to improve my swedish. Since i thought it would be more important.... She was there with "the-girl-that-hates-me-for-no-reason" and she was trying to get one of my mentors attention. She said "Ow my hips are hurting" etc. "Ow this that this this is hurting" etc etc. Bitchy stuff. To get out of lesson. My teacher took her to the doctor. He accidentally touched her shirt and she was like "BACK AWAY THIS ADIDAS SHIRT COSTS 50 DOLLARS" thats the part i blew out of laughter... HOW CAN AN ADIDAS SHIRT COST 50 BUCKS?!?!?!? BWAHHAHAHAHA. BITCH. THAT WASN'T EVEN ADIDAS. THAT WAS H&M. THOSE SHIRTS COST 5 DOLLARS. She said "Why are you laughing" I said "Adidas shi
:iconSnowyTheSnowFox:SnowyTheSnowFox
:iconsnowythesnowfox:SnowyTheSnowFox 5 41
Gina OC Ref :iconlunababy2305:lunababy2305 4 4 Commission | Will-o'-the-wisp :iconowlcoat:OwlCoat 161 28 HGB und IAS/IFRS: Des Pudels Kern :iconzotiel:zotiel 642 70 mommy :iconsockdemons:sockdemons 83 13 lionDragon :iconc3rmen:c3rmen 229 12 civet tattoo for Ritka :iconlilaira:LiLaiRa 1,837 37 The darkness of the night :iconchiibe:Chiibe 281 18 squad :iconvepor:vepor 129 11 Youtubers : The squad :iconpacaora:pacaora 385 13 Bionicle Art Squad Week 10 - Troodon Rahi :iconkanoro-studio:Kanoro-Studio 171 6 SoC Kl :iconchiickenleggy:chiickenleggy 320 37

Friends

Groups

Activity


i spent 2 hours last night trying to transfer a coraline song onto notes for the guitar and my fingers are blue and purple


if anyone wants them-
Stave 1:

E|--3--6--3--1--1--3--4--3--4--6--3--1--------------

B|----------------------------------------------4--2--4-----

G|----------------------------------------------------------3--

D|--------------------------------------------------

A|--------------------------------------------------

E|--------------------------------------------------


Stave 2:


E|--6--11--6--------6--4--3--1-----

B|--------------4--4--------------4--

G|---------------------------------

D|---------------------------------

A|---------------------------------

E|---------------------------------


Stave 3:


E|---------------------------------------------------------------

B|--6--6--6--2--2--6--8--9--8--4--6--6--6--2--2--6--8--9--8--11--

G|---------------------------------------------------------------

D|---------------------------------------------------------------

A|---------------------------------------------------------------

E|---------------------------------------------------------------


Stave 4:


E|-----3--1-----3--1-----------3--1-----3--6--3--1--1--3--4--3--4--6--3--1--------------

B|--4--------4-------4--4--4---------4----------------------------------------------4--2--4-----

G|------------------------------------------------------------------------------------------------3--

D|--------------------------------------------------------------------------------------

A|--------------------------------------------------------------------------------------

E|--------------------------------------------------------------------------------------


Stave 5:


E|--6--11--6--------6--4--3--------

B|--------------4--4------------6--4--

G|---------------------------------

D|---------------------------------

A|---------------------------------

E|---------------------------------


i spent 2 hours last night trying to transfer a coraline song onto notes for the guitar and my fingers are blue and purple


if anyone wants them-
Stave 1:

E|--3--6--3--1--1--3--4--3--4--6--3--1--------------

B|----------------------------------------------4--2--4-----

G|----------------------------------------------------------3--

D|--------------------------------------------------

A|--------------------------------------------------

E|--------------------------------------------------


Stave 2:


E|--6--11--6--------6--4--3--1-----

B|--------------4--4--------------4--

G|---------------------------------

D|---------------------------------

A|---------------------------------

E|---------------------------------


Stave 3:


E|---------------------------------------------------------------

B|--6--6--6--2--2--6--8--9--8--4--6--6--6--2--2--6--8--9--8--11--

G|---------------------------------------------------------------

D|---------------------------------------------------------------

A|---------------------------------------------------------------

E|---------------------------------------------------------------


Stave 4:


E|-----3--1-----3--1-----------3--1-----3--6--3--1--1--3--4--3--4--6--3--1--------------

B|--4--------4-------4--4--4---------4----------------------------------------------4--2--4-----

G|------------------------------------------------------------------------------------------------3--

D|--------------------------------------------------------------------------------------

A|--------------------------------------------------------------------------------------

E|--------------------------------------------------------------------------------------


Stave 5:


E|--6--11--6--------6--4--3--------

B|--------------4--4------------6--4--

G|---------------------------------

D|---------------------------------

A|---------------------------------

E|---------------------------------


deviantID

Honeytailz's Profile Picture
Honeytailz
Honeytail
Artist | Hobbyist | Digital Art
United States
Interests

Comments


Add a Comment:
 
:iconthefloweyfanclub:
TheFloweyfanclub Featured By Owner Jan 16, 2017  Professional Digital Artist
spicy
Reply
:iconhoneytailz:
Honeytailz Featured By Owner Jan 16, 2017  Hobbyist Digital Artist
ayy thanks 
Reply
:iconthefloweyfanclub:
TheFloweyfanclub Featured By Owner Jan 16, 2017  Professional Digital Artist
ayyy your welcome
Reply
:iconmightyraptor:
MightyRaptor Featured By Owner Jan 5, 2017  Student Digital Artist
Mr. Rawr greetings gif by MightyRaptor  Hallo 
Reply
:iconhoneytailz:
Honeytailz Featured By Owner Jan 6, 2017  Hobbyist Digital Artist
ayy
Reply
:iconmightyraptor:
MightyRaptor Featured By Owner Jan 6, 2017  Student Digital Artist
glad to meet
Reply
:iconhoneytailz:
Honeytailz Featured By Owner Jan 6, 2017  Hobbyist Digital Artist
yes yes
Reply
(1 Reply)
:iconsnorechu:
Snorechu Featured By Owner Dec 30, 2016  Hobbyist Digital Artist
Thanks for the watch!! :tighthug:
Reply
:iconhoneytailz:
Honeytailz Featured By Owner Dec 30, 2016  Hobbyist Digital Artist
yup!!
Reply
:iconbeemii:
Beemii Featured By Owner Oct 29, 2016  Hobbyist General Artist
thank you for the watch! i really appreciate it <3
Reply
Add a Comment: